ISO-10303-21;
HEADER;
FILE_DESCRIPTION (( 'STEP AP203' ),
    '1' );
FILE_NAME ('QM-AAHWP-15-900-2100-M.STEP',
    '2021-01-05T02:33:18',
    ( '' ),
    ( '' ),
    'SwSTEP 2.0',
    'SolidWorks 2020',
    '' );
FILE_SCHEMA (( 'CONFIG_CONTROL_DESIGN' ));
ENDSEC;

DATA;
#1 = FACE_OUTER_BOUND ( 'NONE', #16, .T. ) ;
#2 = CYLINDRICAL_SURFACE ( 'NONE', #221, 12.69999999999999929 ) ;
#3 = ORIENTED_EDGE ( 'NONE', *, *, #324, .T. ) ;
#4 = AXIS2_PLACEMENT_3D ( 'NONE', #152, #129, #235 ) ;
#5 = APPLICATION_CONTEXT ( 'configuration controlled 3d designs of mechanical parts and assemblies' ) ;
#6 = CARTESIAN_POINT ( 'NONE',  ( -3.000000000000000000, 0.000000000000000000, 0.000000000000000000 ) ) ;
#7 = PERSON_AND_ORGANIZATION ( #264, #13 ) ;
#8 = DIRECTION ( 'NONE',  ( -1.000000000000000000, -0.000000000000000000, -0.000000000000000000 ) ) ;
#9 = FACE_OUTER_BOUND ( 'NONE', #18, .T. ) ;
#10 = APPROVAL_DATE_TIME ( #284, #292 ) ;
#11 = ADVANCED_FACE ( 'NONE', ( #41 ), #171, .F. ) ;
#12 = CC_DESIGN_PERSON_AND_ORGANIZATION_ASSIGNMENT ( #7, #51, ( #168 ) ) ;
#13 = ORGANIZATION ( 'UNSPECIFIED', 'UNSPECIFIED', '' ) ;
#14 = ORIENTED_EDGE ( 'NONE', *, *, #304, .T. ) ;
#15 = EDGE_CURVE ( 'NONE', #137, #143, #181, .T. ) ;
#16 = EDGE_LOOP ( 'NONE', ( #329, #35, #296, #269 ) ) ;
#17 = ADVANCED_FACE ( 'NONE', ( #147 ), #119, .F. ) ;
#18 = EDGE_LOOP ( 'NONE', ( #82, #215 ) ) ;
#19 = CC_DESIGN_APPROVAL ( #292, ( #168 ) ) ;
#20 = ORIENTED_EDGE ( 'NONE', *, *, #96, .F. ) ;
#21 = DIRECTION ( 'NONE',  ( 1.000000000000000000, 0.000000000000000000, 0.000000000000000000 ) ) ;
#22 = DIRECTION ( 'NONE',  ( -1.000000000000000000, -0.000000000000000000, -0.000000000000000000 ) ) ;
#23 = DIRECTION ( 'NONE',  ( 0.000000000000000000, 0.000000000000000000, 1.000000000000000000 ) ) ;
#24 = DIRECTION ( 'NONE',  ( 1.000000000000000000, 0.000000000000000000, 0.000000000000000000 ) ) ;
#25 = DIRECTION ( 'NONE',  ( 0.000000000000000000, 0.000000000000000000, 1.000000000000000000 ) ) ;
#26 = ORIENTED_EDGE ( 'NONE', *, *, #237, .T. ) ;
#27 = CARTESIAN_POINT ( 'NONE',  ( -3.000000000000000000, 7.500000000000000000, 0.000000000000000000 ) ) ;
#28 = SHAPE_DEFINITION_REPRESENTATION ( #156, #105 ) ;
#29 = CARTESIAN_POINT ( 'NONE',  ( 0.5000000000000008882, 0.000000000000000000, 0.000000000000000000 ) ) ;
#30 = ADVANCED_FACE ( 'NONE', ( #256 ), #259, .T. ) ;
#31 = CALENDAR_DATE ( 2021, 5, 1 ) ;
#32 = DIRECTION ( 'NONE',  ( -1.000000000000000000, 0.000000000000000000, -0.000000000000000000 ) ) ;
#33 = VECTOR ( 'NONE', #191, 1000.000000000000000 ) ;
#34 = PRODUCT_RELATED_PRODUCT_CATEGORY ( 'detail', '', ( #246 ) ) ;
#35 = ORIENTED_EDGE ( 'NONE', *, *, #96, .T. ) ;
#36 = CIRCLE ( 'NONE', #77, 7.499999999999997335 ) ;
#37 = EDGE_LOOP ( 'NONE', ( #155, #278, #213, #280 ) ) ;
#38 = AXIS2_PLACEMENT_3D ( 'NONE', #285, #22, #283 ) ;
#39 = VERTEX_POINT ( 'NONE', #169 ) ;
#40 = CIRCLE ( 'NONE', #282, 7.499999999999998224 ) ;
#41 = FACE_OUTER_BOUND ( 'NONE', #321, .T. ) ;
#42 = DIRECTION ( 'NONE',  ( 0.000000000000000000, 0.000000000000000000, 1.000000000000000000 ) ) ;
#43 = DIRECTION ( 'NONE',  ( -1.000000000000000000, -0.000000000000000000, -0.000000000000000000 ) ) ;
#44 = DIRECTION ( 'NONE',  ( -1.000000000000000000, -0.000000000000000000, -0.000000000000000000 ) ) ;
#45 = CC_DESIGN_APPROVAL ( #78, ( #188 ) ) ;
#46 = EDGE_CURVE ( 'NONE', #293, #240, #207, .T. ) ;
#47 = CARTESIAN_POINT ( 'NONE',  ( -0.5000000000000004441, 0.000000000000000000, 0.000000000000000000 ) ) ;
#48 = ORIENTED_EDGE ( 'NONE', *, *, #322, .T. ) ;
#49 = SECURITY_CLASSIFICATION_LEVEL ( 'unclassified' ) ;
#50 = DIRECTION ( 'NONE',  ( -1.000000000000000000, 0.000000000000000000, -0.000000000000000000 ) ) ;
#51 = PERSON_AND_ORGANIZATION_ROLE ( 'creator' ) ;
#52 = CARTESIAN_POINT ( 'NONE',  ( 3.000000000000000000, 1.555301434917138433E-15, -12.69999999999999929 ) ) ;
#53 = DATE_AND_TIME ( #312, #177 ) ;
#54 = CARTESIAN_POINT ( 'NONE',  ( 3.000000000000000000, 0.000000000000000000, 0.000000000000000000 ) ) ;
#55 = CIRCLE ( 'NONE', #123, 12.69999999999999929 ) ;
#56 = ADVANCED_FACE ( 'NONE', ( #331, #95 ), #199, .F. ) ;
#57 = EDGE_LOOP ( 'NONE', ( #183, #189 ) ) ;
#58 = VERTEX_POINT ( 'NONE', #308 ) ;
#59 = VECTOR ( 'NONE', #8, 1000.000000000000000 ) ;
#60 = ORIENTED_EDGE ( 'NONE', *, *, #322, .F. ) ;
#61 = ORIENTED_EDGE ( 'NONE', *, *, #234, .T. ) ;
#62 = CARTESIAN_POINT ( 'NONE',  ( 3.000000000000000000, 0.000000000000000000, 0.000000000000000000 ) ) ;
#63 = CARTESIAN_POINT ( 'NONE',  ( 3.000000000000000000, 0.000000000000000000, 0.000000000000000000 ) ) ;
#64 = CARTESIAN_POINT ( 'NONE',  ( -3.000000000000000000, 0.000000000000000000, 7.500000000000000000 ) ) ;
#65 = PLANE ( 'NONE',  #249 ) ;
#66 = CARTESIAN_POINT ( 'NONE',  ( -1.614212418857619014, 0.000000000000000000, 0.000000000000000000 ) ) ;
#67 = AXIS2_PLACEMENT_3D ( 'NONE', #114, #226, #113 ) ;
#68 = LINE ( 'NONE', #281, #243 ) ;
#69 = DIRECTION ( 'NONE',  ( 0.000000000000000000, 0.000000000000000000, -1.000000000000000000 ) ) ;
#70 = ADVANCED_FACE ( 'NONE', ( #228 ), #98, .F. ) ;
#71 = APPROVAL ( #170, 'UNSPECIFIED' ) ;
#72 = APPROVAL_DATE_TIME ( #153, #71 ) ;
#73 = EDGE_LOOP ( 'NONE', ( #157, #83 ) ) ;
#74 = APPLICATION_PROTOCOL_DEFINITION ( 'international standard', 'config_control_design', 1994, #135 ) ;
#75 = DIRECTION ( 'NONE',  ( 0.000000000000000000, 0.000000000000000000, 1.000000000000000000 ) ) ;
#76 = DIRECTION ( 'NONE',  ( -0.000000000000000000, 0.000000000000000000, 1.000000000000000000 ) ) ;
#77 = AXIS2_PLACEMENT_3D ( 'NONE', #62, #140, #116 ) ;
#78 = APPROVAL ( #128, 'UNSPECIFIED' ) ;
#79 = EDGE_CURVE ( 'NONE', #270, #311, #248, .T. ) ;
#80 = AXIS2_PLACEMENT_3D ( 'NONE', #145, #306, #166 ) ;
#81 = ADVANCED_FACE ( 'NONE', ( #335 ), #65, .F. ) ;
#82 = ORIENTED_EDGE ( 'NONE', *, *, #304, .F. ) ;
#83 = ORIENTED_EDGE ( 'NONE', *, *, #102, .T. ) ;
#84 = ORIENTED_EDGE ( 'NONE', *, *, #263, .F. ) ;
#85 = DIRECTION ( 'NONE',  ( 0.000000000000000000, 0.000000000000000000, 1.000000000000000000 ) ) ;
#86 = CARTESIAN_POINT ( 'NONE',  ( -3.000000000000000000, 0.000000000000000000, 0.000000000000000000 ) ) ;
#87 = CARTESIAN_POINT ( 'NONE',  ( -1.614212418857619014, 0.000000000000000000, 0.000000000000000000 ) ) ;
#88 = AXIS2_PLACEMENT_3D ( 'NONE', #29, #231, #206 ) ;
#89 = ADVANCED_FACE ( 'NONE', ( #225 ), #2, .T. ) ;
#90 = DIRECTION ( 'NONE',  ( 0.000000000000000000, 0.000000000000000000, -1.000000000000000000 ) ) ;
#91 = EDGE_CURVE ( 'NONE', #192, #143, #103, .T. ) ;
#92 = CARTESIAN_POINT ( 'NONE',  ( 3.000000000000000000, 0.000000000000000000, 7.499999999999997335 ) ) ;
#93 = ORIENTED_EDGE ( 'NONE', *, *, #193, .F. ) ;
#94 = CARTESIAN_POINT ( 'NONE',  ( 3.000000000000000000, 0.000000000000000000, 12.69999999999999929 ) ) ;
#95 = FACE_OUTER_BOUND ( 'NONE', #73, .T. ) ;
#96 = EDGE_CURVE ( 'NONE', #270, #39, #185, .T. ) ;
#97 = COORDINATED_UNIVERSAL_TIME_OFFSET ( 8, 0, .AHEAD. ) ;
#98 = CYLINDRICAL_SURFACE ( 'NONE', #148, 7.499999999999998224 ) ;
#99 = DATE_TIME_ROLE ( 'creation_date' ) ;
#100 = DIRECTION ( 'NONE',  ( -1.000000000000000000, -0.000000000000000000, -0.000000000000000000 ) ) ;
#101 = FACE_BOUND ( 'NONE', #107, .T. ) ;
#102 = EDGE_CURVE ( 'NONE', #143, #137, #309, .T. ) ;
#103 = LINE ( 'NONE', #209, #174 ) ;
#104 = CC_DESIGN_APPROVAL ( #71, ( #255 ) ) ;
#105 = ADVANCED_BREP_SHAPE_REPRESENTATION ( 'QM-AAHWP-15-900-2100-M', ( #210, #150 ), #159 ) ;
#106 = PERSON_AND_ORGANIZATION ( #264, #13 ) ;
#107 = EDGE_LOOP ( 'NONE', ( #202, #3 ) ) ;
#108 = CLOSED_SHELL ( 'NONE', ( #30, #70, #11, #17, #220, #317, #56, #89, #125, #81 ) ) ;
#109 = APPROVAL_PERSON_ORGANIZATION ( #257, #292, #179 ) ;
#110 = FACE_OUTER_BOUND ( 'NONE', #254, .T. ) ;
#111 = CC_DESIGN_PERSON_AND_ORGANIZATION_ASSIGNMENT ( #131, #236, ( #246 ) ) ;
#112 = CARTESIAN_POINT ( 'NONE',  ( 3.000000000000000000, 9.184850993605144000E-16, -7.499999999999997335 ) ) ;
#113 = DIRECTION ( 'NONE',  ( 0.000000000000000000, 0.000000000000000000, 1.000000000000000000 ) ) ;
#114 = CARTESIAN_POINT ( 'NONE',  ( -1.614212418857619014, 0.000000000000000000, 0.000000000000000000 ) ) ;
#115 = CIRCLE ( 'NONE', #325, 7.500000000000000000 ) ;
#116 = DIRECTION ( 'NONE',  ( 0.000000000000000000, 0.000000000000000000, 1.000000000000000000 ) ) ;
#117 = DIRECTION ( 'NONE',  ( 0.000000000000000000, 0.000000000000000000, -1.000000000000000000 ) ) ;
#118 = DIRECTION ( 'NONE',  ( -1.000000000000000000, -0.000000000000000000, -0.000000000000000000 ) ) ;
#119 = PLANE ( 'NONE',  #319 ) ;
#120 = CALENDAR_DATE ( 2021, 5, 1 ) ;
#121 = ORIENTED_EDGE ( 'NONE', *, *, #79, .T. ) ;
#122 = CALENDAR_DATE ( 2021, 5, 1 ) ;
#123 = AXIS2_PLACEMENT_3D ( 'NONE', #277, #305, #42 ) ;
#124 = CARTESIAN_POINT ( 'NONE',  ( -0.5000000000000004441, 0.000000000000000000, 0.000000000000000000 ) ) ;
#125 = ADVANCED_FACE ( 'NONE', ( #9, #101 ), #127, .F. ) ;
#126 = COORDINATED_UNIVERSAL_TIME_OFFSET ( 8, 0, .AHEAD. ) ;
#127 = PLANE ( 'NONE',  #239 ) ;
#128 = APPROVAL_STATUS ( 'not_yet_approved' ) ;
#129 = DIRECTION ( 'NONE',  ( -1.000000000000000000, -0.000000000000000000, -0.000000000000000000 ) ) ;
#130 = AXIS2_PLACEMENT_3D ( 'NONE', #124, #316, #204 ) ;
#131 = PERSON_AND_ORGANIZATION ( #264, #13 ) ;
#132 = ORIENTED_EDGE ( 'NONE', *, *, #324, .F. ) ;
#133 = ORIENTED_EDGE ( 'NONE', *, *, #276, .T. ) ;
#134 = ORIENTED_EDGE ( 'NONE', *, *, #180, .T. ) ;
#135 = APPLICATION_CONTEXT ( 'configuration controlled 3d designs of mechanical parts and assemblies' ) ;
#136 = DIRECTION ( 'NONE',  ( -1.000000000000000000, -0.000000000000000000, -0.000000000000000000 ) ) ;
#137 = VERTEX_POINT ( 'NONE', #178 ) ;
#138 = CARTESIAN_POINT ( 'NONE',  ( 0.000000000000000000, 0.000000000000000000, 0.000000000000000000 ) ) ;
#139 = DIRECTION ( 'NONE',  ( -0.000000000000000000, 0.000000000000000000, 1.000000000000000000 ) ) ;
#140 = DIRECTION ( 'NONE',  ( -1.000000000000000000, -0.000000000000000000, -0.000000000000000000 ) ) ;
#141 = DIRECTION ( 'NONE',  ( -1.000000000000000000, -0.000000000000000000, -0.000000000000000000 ) ) ;
#142 = CARTESIAN_POINT ( 'NONE',  ( -0.5000000000000004441, 9.184850993605145972E-16, -7.499999999999998224 ) ) ;
#143 = VERTEX_POINT ( 'NONE', #290 ) ;
#144 = LINE ( 'NONE', #194, #300 ) ;
#145 = CARTESIAN_POINT ( 'NONE',  ( -3.000000000000000000, 0.000000000000000000, 0.000000000000000000 ) ) ;
#146 = CALENDAR_DATE ( 2021, 5, 1 ) ;
#147 = FACE_OUTER_BOUND ( 'NONE', #242, .T. ) ;
#148 = AXIS2_PLACEMENT_3D ( 'NONE', #87, #43, #301 ) ;
#149 = COORDINATED_UNIVERSAL_TIME_OFFSET ( 8, 0, .AHEAD. ) ;
#150 = AXIS2_PLACEMENT_3D ( 'NONE', #138, #247, #21 ) ;
#151 = LINE ( 'NONE', #261, #59 ) ;
#152 = CARTESIAN_POINT ( 'NONE',  ( -3.000000000000000000, 0.000000000000000000, 0.000000000000000000 ) ) ;
#153 = DATE_AND_TIME ( #120, #294 ) ;
#154 = ORIENTED_EDGE ( 'NONE', *, *, #91, .T. ) ;
#155 = ORIENTED_EDGE ( 'NONE', *, *, #91, .F. ) ;
#156 = PRODUCT_DEFINITION_SHAPE ( 'NONE', 'NONE',  #255 ) ;
#157 = ORIENTED_EDGE ( 'NONE', *, *, #15, .T. ) ;
#158 = CARTESIAN_POINT ( 'NONE',  ( 0.5000000000000008882, 0.000000000000000000, 0.000000000000000000 ) ) ;
#159 =( GEOMETRIC_REPRESENTATION_CONTEXT ( 3 ) GLOBAL_UNCERTAINTY_ASSIGNED_CONTEXT ( ( #327 ) ) GLOBAL_UNIT_ASSIGNED_CONTEXT ( ( #297, #161, #307 ) ) REPRESENTATION_CONTEXT ( 'NONE', 'WORKASPACE' ) );
#160 = CC_DESIGN_PERSON_AND_ORGANIZATION_ASSIGNMENT ( #310, #229, ( #168 ) ) ;
#161 =( NAMED_UNIT ( * ) PLANE_ANGLE_UNIT ( ) SI_UNIT ( $, .RADIAN. ) );
#162 = ORIENTED_EDGE ( 'NONE', *, *, #234, .F. ) ;
#163 = CARTESIAN_POINT ( 'NONE',  ( -1.614212418857619014, 0.000000000000000000, 0.000000000000000000 ) ) ;
#164 = CARTESIAN_POINT ( 'NONE',  ( -0.5000000000000004441, 7.500000000000000000, 0.000000000000000000 ) ) ;
#165 = DIRECTION ( 'NONE',  ( -1.000000000000000000, -0.000000000000000000, -0.000000000000000000 ) ) ;
#166 = DIRECTION ( 'NONE',  ( 0.000000000000000000, 0.000000000000000000, 1.000000000000000000 ) ) ;
#167 = CIRCLE ( 'NONE', #88, 7.500000000000000000 ) ;
#168 = PRODUCT_DEFINITION_FORMATION_WITH_SPECIFIED_SOURCE ( 'ANY', '', #246, .NOT_KNOWN. ) ;
#169 = CARTESIAN_POINT ( 'NONE',  ( -0.5000000000000004441, 0.000000000000000000, 7.499999999999998224 ) ) ;
#170 = APPROVAL_STATUS ( 'not_yet_approved' ) ;
#171 = CYLINDRICAL_SURFACE ( 'NONE', #38, 7.499999999999998224 ) ;
#172 = PERSON_AND_ORGANIZATION_ROLE ( 'creator' ) ;
#173 = DIRECTION ( 'NONE',  ( -1.000000000000000000, -0.000000000000000000, -0.000000000000000000 ) ) ;
#174 = VECTOR ( 'NONE', #100, 1000.000000000000000 ) ;
#175 = DATE_AND_TIME ( #146, #268 ) ;
#176 = CIRCLE ( 'NONE', #334, 7.500000000000000000 ) ;
#177 = LOCAL_TIME ( 10, 33, 18.00000000000000000, #289 ) ;
#178 = CARTESIAN_POINT ( 'NONE',  ( -3.000000000000000000, 0.000000000000000000, 12.69999999999999929 ) ) ;
#179 = APPROVAL_ROLE ( '' ) ;
#180 = EDGE_CURVE ( 'NONE', #241, #58, #167, .T. ) ;
#181 = CIRCLE ( 'NONE', #80, 12.69999999999999929 ) ;
#182 = CIRCLE ( 'NONE', #200, 7.500000000000000000 ) ;
#183 = ORIENTED_EDGE ( 'NONE', *, *, #187, .F. ) ;
#184 = ORIENTED_EDGE ( 'NONE', *, *, #180, .F. ) ;
#185 = CIRCLE ( 'NONE', #130, 7.499999999999998224 ) ;
#186 = EDGE_LOOP ( 'NONE', ( #274, #121, #133, #84 ) ) ;
#187 = EDGE_CURVE ( 'NONE', #271, #311, #115, .T. ) ;
#188 = SECURITY_CLASSIFICATION ( '', '', #49 ) ;
#189 = ORIENTED_EDGE ( 'NONE', *, *, #276, .F. ) ;
#190 = EDGE_CURVE ( 'NONE', #192, #323, #273, .T. ) ;
#191 = DIRECTION ( 'NONE',  ( -1.000000000000000000, -0.000000000000000000, -0.000000000000000000 ) ) ;
#192 = VERTEX_POINT ( 'NONE', #52 ) ;
#193 = EDGE_CURVE ( 'NONE', #323, #137, #151, .T. ) ;
#194 = CARTESIAN_POINT ( 'NONE',  ( -1.614212418857619014, 0.000000000000000000, 7.499999999999998224 ) ) ;
#195 = CARTESIAN_POINT ( 'NONE',  ( 0.5000000000000004441, 7.500000000000000000, 0.000000000000000000 ) ) ;
#196 = CARTESIAN_POINT ( 'NONE',  ( -1.614212418857619014, 0.000000000000000000, 7.499999999999998224 ) ) ;
#197 = EDGE_LOOP ( 'NONE', ( #298, #20 ) ) ;
#198 = AXIS2_PLACEMENT_3D ( 'NONE', #63, #141, #219 ) ;
#199 = PLANE ( 'NONE',  #258 ) ;
#200 = AXIS2_PLACEMENT_3D ( 'NONE', #86, #136, #23 ) ;
#201 = APPROVAL_DATE_TIME ( #175, #78 ) ;
#202 = ORIENTED_EDGE ( 'NONE', *, *, #46, .T. ) ;
#203 = PERSON_AND_ORGANIZATION_ROLE ( 'classification_officer' ) ;
#204 = DIRECTION ( 'NONE',  ( 0.000000000000000000, 0.000000000000000000, -1.000000000000000000 ) ) ;
#205 = EDGE_CURVE ( 'NONE', #39, #270, #40, .T. ) ;
#206 = DIRECTION ( 'NONE',  ( 0.000000000000000000, 0.000000000000000000, 1.000000000000000000 ) ) ;
#207 = CIRCLE ( 'NONE', #198, 7.499999999999997335 ) ;
#208 = DATE_AND_TIME ( #31, #326 ) ;
#209 = CARTESIAN_POINT ( 'NONE',  ( -1.614212418857619014, 1.555301434917138433E-15, -12.69999999999999929 ) ) ;
#210 = MANIFOLD_SOLID_BREP ( 'Ðý×', #108 ) ;
#211 = APPROVAL_ROLE ( '' ) ;
#212 = AXIS2_PLACEMENT_3D ( 'NONE', #302, #44, #25 ) ;
#213 = ORIENTED_EDGE ( 'NONE', *, *, #193, .T. ) ;
#214 = ORIENTED_EDGE ( 'NONE', *, *, #46, .F. ) ;
#215 = ORIENTED_EDGE ( 'NONE', *, *, #190, .F. ) ;
#216 = ORIENTED_EDGE ( 'NONE', *, *, #15, .F. ) ;
#217 = ORIENTED_EDGE ( 'NONE', *, *, #237, .F. ) ;
#218 = LINE ( 'NONE', #196, #33 ) ;
#219 = DIRECTION ( 'NONE',  ( 0.000000000000000000, 0.000000000000000000, 1.000000000000000000 ) ) ;
#220 = ADVANCED_FACE ( 'NONE', ( #110 ), #253, .F. ) ;
#221 = AXIS2_PLACEMENT_3D ( 'NONE', #66, #318, #75 ) ;
#222 = MECHANICAL_CONTEXT ( 'NONE', #5, 'mechanical' ) ;
#223 = CARTESIAN_POINT ( 'NONE',  ( -1.614212418857619014, 9.184850993605145972E-16, -7.499999999999998224 ) ) ;
#224 = LOCAL_TIME ( 10, 33, 18.00000000000000000, #149 ) ;
#225 = FACE_OUTER_BOUND ( 'NONE', #37, .T. ) ;
#226 = DIRECTION ( 'NONE',  ( -1.000000000000000000, -0.000000000000000000, -0.000000000000000000 ) ) ;
#227 = DESIGN_CONTEXT ( 'detailed design', #135, 'design' ) ;
#228 = FACE_OUTER_BOUND ( 'NONE', #186, .T. ) ;
#229 = PERSON_AND_ORGANIZATION_ROLE ( 'design_supplier' ) ;
#230 = CC_DESIGN_SECURITY_CLASSIFICATION ( #188, ( #168 ) ) ;
#231 = DIRECTION ( 'NONE',  ( -1.000000000000000000, -0.000000000000000000, -0.000000000000000000 ) ) ;
#232 = COORDINATED_UNIVERSAL_TIME_OFFSET ( 8, 0, .AHEAD. ) ;
#233 = DIRECTION ( 'NONE',  ( -1.000000000000000000, -0.000000000000000000, -0.000000000000000000 ) ) ;
#234 = EDGE_CURVE ( 'NONE', #58, #241, #176, .T. ) ;
#235 = DIRECTION ( 'NONE',  ( 0.000000000000000000, 0.000000000000000000, 1.000000000000000000 ) ) ;
#236 = PERSON_AND_ORGANIZATION_ROLE ( 'design_owner' ) ;
#237 = EDGE_CURVE ( 'NONE', #293, #241, #144, .T. ) ;
#238 = CC_DESIGN_PERSON_AND_ORGANIZATION_ASSIGNMENT ( #106, #203, ( #188 ) ) ;
#239 = AXIS2_PLACEMENT_3D ( 'NONE', #266, #32, #76 ) ;
#240 = VERTEX_POINT ( 'NONE', #112 ) ;
#241 = VERTEX_POINT ( 'NONE', #272 ) ;
#242 = EDGE_LOOP ( 'NONE', ( #184, #162 ) ) ;
#243 = VECTOR ( 'NONE', #250, 1000.000000000000000 ) ;
#244 = CARTESIAN_POINT ( 'NONE',  ( -3.000000000000000000, 9.184850993605147944E-16, -7.500000000000000000 ) ) ;
#245 = CC_DESIGN_PERSON_AND_ORGANIZATION_ASSIGNMENT ( #267, #172, ( #255 ) ) ;
#246 = PRODUCT ( 'QM-AAHWP-15-900-2100-M', 'QM-AAHWP-15-900-2100-M', '', ( #222 ) ) ;
#247 = DIRECTION ( 'NONE',  ( 0.000000000000000000, 0.000000000000000000, 1.000000000000000000 ) ) ;
#248 = LINE ( 'NONE', #223, #332 ) ;
#249 = AXIS2_PLACEMENT_3D ( 'NONE', #164, #24, #117 ) ;
#250 = DIRECTION ( 'NONE',  ( -1.000000000000000000, -0.000000000000000000, -0.000000000000000000 ) ) ;
#251 = DIRECTION ( 'NONE',  ( 1.000000000000000000, 0.000000000000000000, 0.000000000000000000 ) ) ;
#252 = APPROVAL_PERSON_ORGANIZATION ( #265, #71, #286 ) ;
#253 = CYLINDRICAL_SURFACE ( 'NONE', #212, 7.499999999999998224 ) ;
#254 = EDGE_LOOP ( 'NONE', ( #60, #214, #26, #134 ) ) ;
#255 = PRODUCT_DEFINITION ( 'UNKNOWN', '', #168, #227 ) ;
#256 = FACE_OUTER_BOUND ( 'NONE', #295, .T. ) ;
#257 = PERSON_AND_ORGANIZATION ( #264, #13 ) ;
#258 = AXIS2_PLACEMENT_3D ( 'NONE', #27, #251, #69 ) ;
#259 = CYLINDRICAL_SURFACE ( 'NONE', #67, 12.69999999999999929 ) ;
#260 = DATE_TIME_ROLE ( 'classification_date' ) ;
#261 = CARTESIAN_POINT ( 'NONE',  ( -1.614212418857619014, 0.000000000000000000, 12.69999999999999929 ) ) ;
#262 = CC_DESIGN_DATE_AND_TIME_ASSIGNMENT ( #208, #99, ( #255 ) ) ;
#263 = EDGE_CURVE ( 'NONE', #39, #271, #218, .T. ) ;
#264 = PERSON ( 'UNSPECIFIED', 'UNSPECIFIED', 'UNSPECIFIED', ('UNSPECIFIED'), ('UNSPECIFIED'), ('UNSPECIFIED') ) ;
#265 = PERSON_AND_ORGANIZATION ( #264, #13 ) ;
#266 = CARTESIAN_POINT ( 'NONE',  ( 3.000000000000000000, 12.69999999999999929, 0.000000000000000000 ) ) ;
#267 = PERSON_AND_ORGANIZATION ( #264, #13 ) ;
#268 = LOCAL_TIME ( 10, 33, 18.00000000000000000, #232 ) ;
#269 = ORIENTED_EDGE ( 'NONE', *, *, #187, .T. ) ;
#270 = VERTEX_POINT ( 'NONE', #142 ) ;
#271 = VERTEX_POINT ( 'NONE', #64 ) ;
#272 = CARTESIAN_POINT ( 'NONE',  ( 0.5000000000000008882, 0.000000000000000000, 7.500000000000000000 ) ) ;
#273 = CIRCLE ( 'NONE', #288, 12.69999999999999929 ) ;
#274 = ORIENTED_EDGE ( 'NONE', *, *, #205, .T. ) ;
#275 = APPROVAL_PERSON_ORGANIZATION ( #315, #78, #211 ) ;
#276 = EDGE_CURVE ( 'NONE', #311, #271, #182, .T. ) ;
#277 = CARTESIAN_POINT ( 'NONE',  ( 3.000000000000000000, 0.000000000000000000, 0.000000000000000000 ) ) ;
#278 = ORIENTED_EDGE ( 'NONE', *, *, #190, .T. ) ;
#279 = DIRECTION ( 'NONE',  ( -1.000000000000000000, -0.000000000000000000, -0.000000000000000000 ) ) ;
#280 = ORIENTED_EDGE ( 'NONE', *, *, #102, .F. ) ;
#281 = CARTESIAN_POINT ( 'NONE',  ( -1.614212418857619014, 9.184850993605145972E-16, -7.499999999999998224 ) ) ;
#282 = AXIS2_PLACEMENT_3D ( 'NONE', #47, #333, #90 ) ;
#283 = DIRECTION ( 'NONE',  ( 0.000000000000000000, 0.000000000000000000, 1.000000000000000000 ) ) ;
#284 = DATE_AND_TIME ( #122, #224 ) ;
#285 = CARTESIAN_POINT ( 'NONE',  ( -1.614212418857619014, 0.000000000000000000, 0.000000000000000000 ) ) ;
#286 = APPROVAL_ROLE ( '' ) ;
#287 = DIRECTION ( 'NONE',  ( 0.000000000000000000, 0.000000000000000000, 1.000000000000000000 ) ) ;
#288 = AXIS2_PLACEMENT_3D ( 'NONE', #54, #173, #287 ) ;
#289 = COORDINATED_UNIVERSAL_TIME_OFFSET ( 8, 0, .AHEAD. ) ;
#290 = CARTESIAN_POINT ( 'NONE',  ( -3.000000000000000000, 1.555301434917138433E-15, -12.69999999999999929 ) ) ;
#291 = APPROVAL_STATUS ( 'not_yet_approved' ) ;
#292 = APPROVAL ( #291, 'UNSPECIFIED' ) ;
#293 = VERTEX_POINT ( 'NONE', #92 ) ;
#294 = LOCAL_TIME ( 10, 33, 18.00000000000000000, #97 ) ;
#295 = EDGE_LOOP ( 'NONE', ( #14, #154, #216, #93 ) ) ;
#296 = ORIENTED_EDGE ( 'NONE', *, *, #263, .T. ) ;
#297 =( LENGTH_UNIT ( ) NAMED_UNIT ( * ) SI_UNIT ( .MILLI., .METRE. ) );
#298 = ORIENTED_EDGE ( 'NONE', *, *, #205, .F. ) ;
#299 = CYLINDRICAL_SURFACE ( 'NONE', #320, 7.499999999999998224 ) ;
#300 = VECTOR ( 'NONE', #279, 1000.000000000000000 ) ;
#301 = DIRECTION ( 'NONE',  ( 0.000000000000000000, 0.000000000000000000, 1.000000000000000000 ) ) ;
#302 = CARTESIAN_POINT ( 'NONE',  ( -1.614212418857619014, 0.000000000000000000, 0.000000000000000000 ) ) ;
#303 = DIRECTION ( 'NONE',  ( -1.000000000000000000, -0.000000000000000000, -0.000000000000000000 ) ) ;
#304 = EDGE_CURVE ( 'NONE', #323, #192, #55, .T. ) ;
#305 = DIRECTION ( 'NONE',  ( -1.000000000000000000, -0.000000000000000000, -0.000000000000000000 ) ) ;
#306 = DIRECTION ( 'NONE',  ( -1.000000000000000000, -0.000000000000000000, -0.000000000000000000 ) ) ;
#307 =( NAMED_UNIT ( * ) SI_UNIT ( $, .STERADIAN. ) SOLID_ANGLE_UNIT ( ) );
#308 = CARTESIAN_POINT ( 'NONE',  ( 0.5000000000000008882, 9.184850993605147944E-16, -7.500000000000000000 ) ) ;
#309 = CIRCLE ( 'NONE', #4, 12.69999999999999929 ) ;
#310 = PERSON_AND_ORGANIZATION ( #264, #13 ) ;
#311 = VERTEX_POINT ( 'NONE', #244 ) ;
#312 = CALENDAR_DATE ( 2021, 5, 1 ) ;
#313 = DIRECTION ( 'NONE',  ( 0.000000000000000000, 0.000000000000000000, 1.000000000000000000 ) ) ;
#314 = CC_DESIGN_DATE_AND_TIME_ASSIGNMENT ( #53, #260, ( #188 ) ) ;
#315 = PERSON_AND_ORGANIZATION ( #264, #13 ) ;
#316 = DIRECTION ( 'NONE',  ( 1.000000000000000000, 0.000000000000000000, 0.000000000000000000 ) ) ;
#317 = ADVANCED_FACE ( 'NONE', ( #1 ), #299, .F. ) ;
#318 = DIRECTION ( 'NONE',  ( -1.000000000000000000, -0.000000000000000000, -0.000000000000000000 ) ) ;
#319 = AXIS2_PLACEMENT_3D ( 'NONE', #195, #50, #139 ) ;
#320 = AXIS2_PLACEMENT_3D ( 'NONE', #163, #165, #85 ) ;
#321 = EDGE_LOOP ( 'NONE', ( #132, #48, #61, #217 ) ) ;
#322 = EDGE_CURVE ( 'NONE', #240, #58, #68, .T. ) ;
#323 = VERTEX_POINT ( 'NONE', #94 ) ;
#324 = EDGE_CURVE ( 'NONE', #240, #293, #36, .T. ) ;
#325 = AXIS2_PLACEMENT_3D ( 'NONE', #6, #233, #313 ) ;
#326 = LOCAL_TIME ( 10, 33, 18.00000000000000000, #126 ) ;
#327 = UNCERTAINTY_MEASURE_WITH_UNIT (LENGTH_MEASURE( 1.000000000000000082E-05 ), #297, 'distance_accuracy_value', 'NONE');
#328 = APPLICATION_PROTOCOL_DEFINITION ( 'international standard', 'config_control_design', 1994, #5 ) ;
#329 = ORIENTED_EDGE ( 'NONE', *, *, #79, .F. ) ;
#330 = DIRECTION ( 'NONE',  ( 0.000000000000000000, 0.000000000000000000, 1.000000000000000000 ) ) ;
#331 = FACE_BOUND ( 'NONE', #57, .T. ) ;
#332 = VECTOR ( 'NONE', #303, 1000.000000000000000 ) ;
#333 = DIRECTION ( 'NONE',  ( 1.000000000000000000, 0.000000000000000000, 0.000000000000000000 ) ) ;
#334 = AXIS2_PLACEMENT_3D ( 'NONE', #158, #118, #330 ) ;
#335 = FACE_OUTER_BOUND ( 'NONE', #197, .T. ) ;
ENDSEC;
END-ISO-10303-21;
